Forum www.edur.fora.pl Strona Główna
 
 FAQFAQ   FAQSzukaj   FAQUżytkownicy   FAQGrupy  GalerieGalerie   FAQRejestracja   FAQProfil   FAQZaloguj 
FAQZaloguj się, by sprawdzić wiadomości   
Chcesz schudnąć przed Sylwestrem?
Kup Teraz a 30 dniową dietę otrzymasz za darmo!
Tylko 137 zł TRIZER + indywidualna dieta
Pefcect-Nie mogę ci wiele dać

 
Napisz nowy temat   Odpowiedz do tematu    Forum www.edur.fora.pl Strona Główna -> Tabulatury do Piosenek
Zobacz poprzedni temat :: Zobacz następny temat  
Autor Wiadomość
BLAZO
Gitarzysta 10%
<b>Gitarzysta 10%</b>



Dołączył: 23 Kwi 2008
Posty: 17
Przeczytał: 0 tematów

Pomógł: 3 razy
Ostrzeżeń: 0/5

PostWysłany: Śro 2:18, 23 Kwi 2008    Temat postu: Pefcect-Nie mogę ci wiele dać

E||--------------------0--|--0------------------------|-------------------0--|
B||-----0-4------------0--|--0--4----4-----4-----4----|-------4-----------0--|
G||--------------------1--|--1--4----4-----4-----4----|-----4-------------1--|
D||--4--------------------|-----4----4-----4-----4----|--4-------------------|
A||--2--------------------|--------2------------------|--2-------------------|
E||-----------------------|---------------------------|----------------------|



--0------------------------|------------------------|-----------------------|
--0--4----4-----4-----4----|--4----4-----4----4-----|--4----4----4----4-----|
--1--4----4-----4-----4----|--4----4-----4----4-----|--4----4----4----4-----|
-----4----4-----4-----4----|--4----4-----4----4-----|--6----6----4----4-----|
--------2------------------|--2------------------2--|-----------------------|
---------------------------|------------------------|--4-----------------4--|



------------------------|------------------0----|------------------------|
--2----2-----0----0-----|--0----4---------------|--4----4----4-----4-----|
--1----1-----1----1-----|-------4---------------|--4----4----4-----4-----|
--2----2-----2----2-----|--4----4--------4------|--4----4----4-----4-----|
--4------------------4--|--6-------------9------|--2------------------2--|
------------------------|--7--------------------|---------------2--------|



------------------------|-----------------------|-----------------------------|
--4----4----4-----4-----|--2----2----0-----0----|--4----4-0------2------------|
--4----4----4-----4-----|--1----1----1-----1----|--4-------------2------4-----|
--6----6----4-----4-----|--2----2----2-----2----|--4--------4----4--4---4-----|
------------------------|--4------------4-------|--2----------2--2----2-0--2--|
--4------------4-----4--|-----------------------|-----------------------------|



--0------0------0------------------|--0-----0------0------------0---|
--0------0------0----------0-----0-|--------0------0----------0-----|
--1--1------1---1--1-----1-----1---|----1------1---1--1-----1-------|
-------2------2------2-------2-----|------4------4--------4-------4-|
-----------------------4-----------|--------------------------------|
--0--------------------0-----------|--------------------2-----------|



---------------------------0---------|---0---0--------------------------|
--0------4----4----------0---4-----2-|-----4-------2------2------4------|
---------4------4--------3-------2---|---------2-1---2-----------4------|
--4--4------4-----4----4-----------2-|-----------4--------2--1---0------|
-------2-------------2---------------|------------------2-3----2--------|
-----------------------------------0-|-------------------------------2--|



---------0---------------------0-----|--0-----------------------------|
--0------0-------0-----------0-------|----------0-------0----------0--|
--0--1------1----4-1-------1-------1-|-----1----4----1--5--------1----|
-------2-------2------2-4--------2-0-|--------4----4-------6---4------|
--2----------------------------------|----------2-------6-------------|
--0----------------------------------|-----------------------2--------|



------------------0--|--0------------------------|-------------------------|
--4----4----------0--|--0--4----4-----4-----4----|--4----4----4-----4------|
--4----4----------1--|--1--4----4-----4-----4----|--4----4----4-----4------|
--4----4-------------|-----4----4-----4-----4----|--4----4----4-----4------|
--2------------------|--------2------------------|--2----------------------|
---------------------|---------------------------|---------------2----2-3--|



------------------------|-----------------------|------------------0----|
--4----4----4-----4-----|--2----2----0-----0----|--0----4---------------|
--4----4----4-----4-----|--1----1----1-----1----|-------4---------------|
--6----6----4-----4-----|--2----2----2-----2----|--4----4--------4------|
------------------------|--4------------4-------|--6-------------9------|
--4------------4-----4--|-----------------------|--7--------------------|



------------------------|------------------------|-----------------------|
--4----4----4-----4-----|--4----4----4-----4-----|--2----2----0-----0----|
--4----4----4-----4-----|--4----4----4-----4-----|--1----1----1-----1----|
--4----4----4-----4-----|--6----6----4-----4-----|--2----2----2-----2----|
--2------------------2--|------------------------|--4------------4-------|
---------------2--------|--4------------4-----4--|-----------------------|



-----------------------------|---------0------0------------------|
--4----4-0------2------------|---------0------0----------0-----0-|
--4-------------2------4-----|-----1------1---1--1-----1-----1---|
--4--------4----4--4---4-----|-------2------2------2-------2-----|
--2----------2--2----2-0--2--|-----------------------4-----------|
-----------------------------|--0--------------------0-----------|



--0-----0------0------------0---|---------------------------0---------|
--------0------0----------0-----|--0------4----4----------0---4-----2-|
----1------1---1--1-----1-------|---------4------4--------3-------2---|
------4------4--------4-------4-|--4--4------4-----4----4-----------2-|
--------------------------------|-------2-------------2---------------|
--------------------2-----------|-----------------------------------0-|



---0---0--------------------------|----------0---------------------0-----|
-----4-------2------2------4------|--0-------0-------0-----------0-------|
---------2-1---2-----------4------|--4--1-------1----4-1-------1-------1-|
-----------4--------2--1---0------|--5----2--------2------2-4--------2-0-|
------------------2-3----2--------|--1-----------------------------------|
-------------------------------2--|--3-----------------------------------|




--0-----------------------------|------------------0--|--0-----------------------
-|
----------0-------0----------0--|--4----4----------0--|--0--4----4-----4-----4---
-|
-----1----4----1--4--1-----1----|--4----4----------1--|--1--4----4-----4-----4---
-|
--------4----4----2------4------|--4----4-------------|-----4----4-----4-----4---
-|
----------2---------------------|--2------------------|--------2-----------------
-|
-----------------------2--------|---------------------|--------------------------
-|



------------------------|-----------------------|------------------------|
--4----4-----4----4-----|--4----4----4----4-----|--2----2-----0----0-----|
--4----4-----4----4-----|--4----4----4----4-----|--1----1-----1----1-----|
--4----4-----4----4-----|--6----6----4----4-----|--2----2-----2----2-----|
--2------------------2--|-----------------------|--4------------------4--|
------------------------|--4-----------------4--|------------------------|



------------------0----|------------------------|------------------------|
--0----4---------------|--4----4----4-----4-----|--4----4----4-----4-----|
-------4---------------|--4----4----4-----4-----|--4----4----4-----4-----|
--4----4--------4------|--4----4----4-----4-----|--6----6----4-----4-----|
--6-------------9------|--2------------------2--|------------------------|
--7--------------------|---------------2--------|--4------------4-----4--|




-----------------------|-----------------------------|--0------0------0----------
--------|
--2----2----0-----0----|--4----4-0------2------------|--0------0------0----------
0-----0-|
--1----1----1-----1----|--4-------------2------4-----|--1--1------1---1--1-----1-
----1---|
--2----2----2-----2----|--4--------4----4--4---4-----|-------2------2------2-----
--2-----|
--4------------4-------|--2----------2--2----2-0--2--|-----------------------4---
--------|
-----------------------|-----------------------------|--0--------------------0---
--------|



--0-----0------0------------0---|---------------------------0---------|
--------0------0----------0-----|--0------4----4----------0---4-----2-|
----1------1---1--1-----1-------|---------4------4--------3-------2---|
------4------4--------4-------4-|--4--4------4-----4----4-----------2-|
--------------------------------|-------2-------------2---------------|
--------------------2-----------|-----------------------------------0-|



---0---0--------------------------|---------0---------------------0-----|
-----4-------2------2------4------|--0------0-------0-----------0-------|
---------2-1---2-----------4------|--0--1------1----4-1-------1-------1-|
-----------4--------2--1---0------|-------2-------2------2-4--------2-0-|
------------------2-3----2--------|--2----------------------------------|
-------------------------------2--|--0----------------------------------|




--0-----------------------------|------------------0--|--0-----------------------
-|
----------0-------0----------0--|--4----4----------0--|--0--4----4-----4-----4---
-|
-----1----4----1--4--1-----1----|--4----4----------1--|--1--4----4-----4-----4---
-|
--------4----4----2------4------|--4----4-------------|-----4----4-----4-----4---
-|
----------2---------------------|--2------------------|--------2-----------------
-|
-----------------------2--------|---------------------|--------------------------
-|



-------------------------|------------------------|-----------------------|
--4----4----4-----4------|--4----4----4-----4-----|--2----2----0-----0----|
--4----4----4-----4------|--4----4----4-----4-----|--1----1----1-----1----|
--4----4----4-----4------|--6----6----4-----4-----|--2----2----2-----2----|
--2----------------------|------------------------|--4------------4-------|
---------------2----2-3--|--4------------4-----4--|-----------------------|



------------------0----|------------------------|------------------------|
--0----4---------------|--4----4----4-----4-----|--4----4----4-----4-----|
-------4---------------|--4----4----4-----4-----|--4----4----4-----4-----|
--4----4--------4------|--4----4----4-----4-----|--6----6----4-----4-----|
--6-------------9------|--2------------------2--|------------------------|
--7--------------------|---------------2--------|--4------------4-----4--|



----------------------|------------2--4-------7----|------------------||
--2----2----0----0----|------0-2-4--------2-4------|------------------||
--1----1----1----1----|---------------------6------|------------------||
--2----2----2----2----|----4-----------------------|------------------||
--4-------------------|--2-------------------------|------------------||
----------------------|----------------------------|------------------||


Post został pochwalony 2 razy
Powrót do góry
Zobacz profil autora
wojtasso
Administrator
<b>Administrator</b>



Dołączył: 19 Kwi 2008
Posty: 14
Przeczytał: 0 tematów

Pomógł: 1 raz
Ostrzeżeń: 0/5

PostWysłany: Śro 12:43, 23 Kwi 2008    Temat postu:

Pochwała za wszystkie tabulatury zawsze jak będziesz pomagał w rozwoju forum czeka na Ciebie pochwała

Post został pochwalony 0 razy
Powrót do góry
Zobacz profil autora
BLAZO
Gitarzysta 10%
<b>Gitarzysta 10%</b>



Dołączył: 23 Kwi 2008
Posty: 17
Przeczytał: 0 tematów

Pomógł: 3 razy
Ostrzeżeń: 0/5

PostWysłany: Śro 22:33, 23 Kwi 2008    Temat postu:

chciałeś chyba powiedzieć mod team

Post został pochwalony 0 razy
Powrót do góry
Zobacz profil autora
wojtasso
Administrator
<b>Administrator</b>



Dołączył: 19 Kwi 2008
Posty: 14
Przeczytał: 0 tematów

Pomógł: 1 raz
Ostrzeżeń: 0/5

PostWysłany: Śro 22:43, 23 Kwi 2008    Temat postu:

i to też :p

Post został pochwalony 0 razy
Powrót do góry
Zobacz profil autora
momochi
Mistrz Gitary
<b>Mistrz Gitary</b>



Dołączył: 23 Cze 2008
Posty: 7
Przeczytał: 0 tematów

Ostrzeżeń: 0/5
Skąd: Oława

PostWysłany: Pon 17:36, 23 Cze 2008    Temat postu:

Pochwała za wszystkie tabulatury zawsze jak będziesz pomagał w rozwoju forum czeka na Ciebie pochwała Very Happy

Post został pochwalony 0 razy
Powrót do góry
Zobacz profil autora
Wyświetl posty z ostatnich:   
Napisz nowy temat   Odpowiedz do tematu    Forum www.edur.fora.pl Strona Główna -> Tabulatury do Piosenek Wszystkie czasy w strefie GMT + 6 Godzin
Strona 1 z 1

 
Skocz do:  
Nie możesz pisać nowych tematów
Nie możesz odpowiadać w tematach
Nie możesz zmieniać swoich postów
Nie możesz usuwać swoich postów
Nie możesz głosować w ankietach


fora.pl - załóż własne forum dyskusyjne za darmo
Powered by phpBB © 2001, 2005 phpBB Group

Style edur created by spleen & Programy.
Regulamin